Forum - Sinhala Guitar Lessons with Tabs and Chords
A A A
Avatar

Please consider registering
guest

sp_LogInOut Log In sp_Registration Register

Register | Lost password?
Advanced Search

— Forum Scope —




— Match —





— Forum Options —





Minimum search word length is 3 characters - maximum search word length is 84 characters

sp_Feed Topic RSS sp_TopicIcon
ගිටාර් ටැබ්කරණය - තවදුරටත්
අධ්‍යනයට පමණයි
December 3, 2012
12:52 pm
Avatar
Chandralal Alahakoon

Premium Member

Premium Members
Forum Posts: 102
Member Since:
October 26, 2012
sp_UserOfflineSmall Offline

ගිටාර් ටැබ් කරණය මුලික දැනීමක් ගිටාර් ටැබ් යනු මොනවාද  යන පාඩමෙන්

ඔබ ලබන්නට ඇත.  මෙහිදී වාද්‍ය ඛණ්ඩයක් වාදනයක ස්වර ස්ථාන ගිටාර යේ

තත් මත පිහිටන අයුරු වගුවක ආශ්‍රයෙන් දැක්වේ. එසේම  E A D G B E

යන සම්මත සුසර තත් වගුවෙහි පහල සිට ඉහලට දක්වන අතර  ඇතැම් විට බේස්

තත් භාවිත නොකරන විට එය ටැබ් සටහනෙහි නොදක්වයි.

 

E ---------------------------

B ---------------------------

G ---------------------------

D ---------------------------

 

මෙහි E A යන බේස් තත් දක්වා නොමැත. ගිටාර් ටැබ් වල ප්‍රධානතම අවාසිය

වන්නේ කිසියම් ස්වරයක් කොපමණ කාල පරාසයක් වාදනය කල යුතු ද යන්න

නොදැක්වීමයි. ගිටාරයේ තත් මත ස්වර පිහිටන ආකාරය ඔබ දැනටමත් දන්නා

නිසා පැහැදිලි කර ගැනීමට පහත සදහන් ටැබ් සටහන අධ්‍යයනය කරන්න.

 

Song: Ajeeb Daastan Hai Yeh   Film: Dil Apana Aur Preet Parayee

Artist : Latha Mangeskar

 

INTRO....
E------------4----------------------------4-----4----4-----4----4------------
B---------5-------7--5-----------------5--------5----5-----5----5------------
G--4--6------------------6---5--4--6------------4----4-----4----4------------
D----------------------------------------------------------------------------
   b  c#  e  g#  f#  e   c#  c  b  c#  e  g#  bg#e  bg#e bg#e  bg#e

E------------4------------------------4--7------7----7-----7----7------------
B---------5-------7--5-------------5------------7----7-----7----7------------
G--4--6------------------6---5--4---------------6----6-----6----6------------
D---------------------------------------------------------------------------
   b  c#  e  g#  f#  e  c#   c  b  e  g# b  bg#e  bg#e   bg#e  bg#e 

--------------------------------------------------------------------------------
SOME OTHER INSTRUMENT for few second and then this

E--4--7------------0---2---4--7---4--7------------0---4--2------------------
B--------0--0---2-----------------------0--0---2----------------------------
G---------------------------------------------------------------------------
D---------------------------------------------------------------------------
  g#  b  b  b  c#  e  f#  g#  b  g#  b  b  b  c#  e  g#  f#

--------------------------------------------------------------------------------

E----9-7---9---7----------------------9--7----9---7-------------------------
B------------------9--7--------9---------------------9---7---------7--------
G--------------------------9-----------------------------------9------------
D---------------------------------------------------------------------------
    c# b  c#   b   g# f#   e   g#    c#  b   c#   b  g#  f#   e    f#
    A jee b   daa s  tan  hai yeh    ka haan shu ru ka  haan kha tam

E------------------------------------------9---7--9----7--------------------
B----9---7---9---7----------------------------------------9--7--------------
G--------------------9----8---6--8-------------------------------6---9------
D---------------------------------------------------------------------------
    g#   f#  g#  f#  e   d#  c#  d#        c#  b  c#   b  g# f#  c#  e      
    yeh man  zi  len hain ka  un si        na woh sama jh sa ke  na  hum
--------------------------------------------------------------------------------

E------------------------------------------9---7--9--7---5---5--9---7-------
B-------7--9--10--9--10--7---10---------------------------------------------
G---8-----------------------------------------------------------------------
D---------------------------------------------------------------------------
    e   f# g# a  g#  a   f#  a             c#  b  c# b   a   a  c#  b
    Yeh ro sh ni  ke saa th  kyon          dhu an u  tha chi ra g   se

E---11--11---9--11--9--7--5----7-----------7--7---9--7----------------------
B-------------------------------------------------------9----7--5------5----
G------------------------------------------------------------------6--------
D---------------------------------------------------------------------------
    d#  d#  c#  d# c#  b  a    b           b  b   c# b  g#   f# e  c#  e    
    Yeh Khwa b  de kh  ti hoon main        ki jug pa ri hoon kh wa b   se
--------------------------------------------------------------------------------

E----4------4----4---4------4----4------------------------------------------
B----5------5----5---5------5----5------------------------------------------
G----4------4----4---4------4----4------------------------------------------
D---------------------------------------------------------------------------
     bg#e  bg#e  bg#e bg#e  bg#e  bg#e

‍මෙම  අවසාන ටැබ්  සටහනෙන්  E Major කෝඩ් එක 6 වරක් දක්වා ඇත. මෙයට පාදක වන ගීතය

A major ස්කේලයේ වන අතර ගීතයද මෙහි දක්වා ඇත.


http://www.youtube.com/watch?v=Jd3oGFjSrkQ

C.Alahakoon

Forum Timezone: Asia/Colombo

Most Users Ever Online: 31

Currently Online:
5 Guest(s)

Currently Browsing this Page:
1 Guest(s)

See All Online Activity
Members Birthdays
sp_BirthdayIcon
Today None
Upcoming None

Top Posters:

Chandralal Alahakoon: 102

Jana: 31

arun shantha: 30

Harsha Karunaratna: 23

Anushka Ariyaratne: 21

Tharanga Samaraweera: 20

Melan Pushpakumara: 17

Kaalagola: 10

Thisun Dharmapriya: 9

kasun BALASOORIYA: 8

Member Stats:

Guest Posters: 0

Members: 4445

Moderators: 0

Admins: 2

Forum Stats:

Groups: 6

Forums: 16

Topics: 384

Posts: 744

Newest Members:

Saranga Adhikari, LeonardStaiz LeonardStaiz, Pedrohew Pedrohew, maxbetevsa maxbetevsa, Blaineelugs Blaineelugs, Jamieutece Jamieutece, VaidokMeavy VaidokMeavy, Fedorove Fedorove, Alexasdah Alexasdah, Jerrybox Jerrybox

Administrators: Vinsara: 313, Tharindu Pramuditha Gamage: 51