Heenayak Wage Oba Awa Guitar Lesson1 - Sinhala Guitar Lessons with Tabs and Chords

Heenayak Wage Oba Awa Guitar Lesson1

Guitar tab is available now.This lesson has 18 slow videos.

Lesson Guide

Main freePremium Only

Slow1                                  

E||----------------------------------------|
B||------------------------3-5-6-5h-6-5h-6-|
G||------------------2-3-5-----------------|
D||--3-----2-0-2-3-5-----------------------|
A||----------------------------------------|
E||----------------------------------------|

Slow2                         

-------------------------------|
--5-----6-6S-8-8g6-5-6-6g5-3-5-|
-------------------------------|
-------------------------------|
-------------------------------|
-------------------------------|

Slow3                    

--------------------------|
--5-----6-5-3-5-----------|
----------------6-7-6-5-6-|
--------------------------|
--------------------------|
--------------------------|

Slow4                   

----------------3-5-3S-6-|
------------2-5----------|
--2-----2-2--------------|
-------------------------|
-------------------------|
-------------------------|

Slow5                                    

--5-----5-5-6-5-3-1-3-1h-3-0-1-0h-1---0---|
------------------------------------3---2-|
------------------------------------------|
------------------------------------------|
------------------------------------------|
------------------------------------------|

Slow6                                                                  

---------------------------------------------------------------------|
-----6---6---6---6---6---6---6---6---6---6---6---6---6---6---6---6---|
--7----7---6---6---5---5---6---6---7---7---6---6---5---5---6---6---7-|
---------------------------------------------------------------------|
---------------------------------------------------------------------|
---------------------------------------------------------------------|

Slow7                                                  

----------------------------------------3-5-3---3-5-6-|
----------------------------2-5-2---2-5-------5-------|
------------------2-------2-------2-------------------|
--2-----------2-5---5-2-5-----------------------------|
--------4---4-----------------------------------------|
----------5-------------------------------------------|

Slow8        

------------5-|
--6-----8-6---|
--------------|
--------------|
--------------|
--------------|

Slow9                               

--9-----6-------------------5-6-|
----------8-------------5-8-----|
------------9-6-------6---------|
----------------7-5-7-----------|
--------------------------------|
--------------------------------|

Slow10                    

---------------------------|
----------------5-6-6S-8-6-|
--5S-----7-5S-7------------|
---------------------------|
---------------------------|
---------------------------|

Slow11                      

--8------7-6-----------------|
-------------8-6-5-5-6-5-4-5-|
-----------------------------|
-----------------------------|
-----------------------------|
-----------------------------|

  Slow12                                     

-----------------------8-10-12-13-12-10----10
--5------6-7-8-8-10-11------------------13---
---------------------------------------------
---------------------------------------------
---------------------------------------------
---------------------------------------------

   Slow13                                    

---------------------------------------------
--13-----10-11-10-11----10-------------------
---------------------12----10-12-9-10----9---
--------------------------------------12---11
---------------------------------------------
---------------------------------------------

Slow14                         

---------------------------------|
---------------------------------|
----------------------------9-10-|
--11h----12p-11-------11-12------|
----------------10-12------------|
---------------------------------|

Slow15           Slow16        

-----------5-6-|---------6-7-8-|
---------6-----|--6------------|
--5------------|---------------|
---------------|---------------|
---------------|---------------|
---------------|---------------|

Slow17                  

-------------------------|
---------------------5-6-|
-------------5-7-5-7-----|
--7------5-7-------------|
-------------------------|
-------------------------|

  Slow18 (Harmony of part 17)                  

-------------------------------5-||
---------------------5-6-5-6-8---||
--7--------------5-7-------------||
---------------------------------||
---------------------------------||
---------------------------------||