Waradak Kalath guitar solo Archives - Sinhala Guitar Lessons with Tabs and Chords

Waradak Kalath guitar solo

Waradak Kalath Guitar Lesson with tab

Song - Waradak Kalath
Artist - Sanath Nandasiri
Key -F minor
Beat - 3/4

This lesson is free.Enjoy!

You can improve your slide technique with this song.Practice slowly with the guitar tab.You can pause and re play  the video until you nail down all the notes.

If you don't know how to read guitar tab please read this article.

How to read guitar tabs

Waradak Kalath Guitar Chords

You need to install or upgrade Flash Player to view this content, install or upgrade by clicking here.

 

E||----------------------------------------------||
B||-----------------------8-9-8----8-------------||
G||--8s-10-10-10-10-10-10-------10---5s-8-8s-5---||
D||----------------------------------------------||
A||----------------------------------------------||
E||----------------------------------------------||
E||---------------------------------------------------------------------||
B||------------8-8-8-8-8---8-9-11-9-8-9---------------------------------||
G||--5s-8-8-10--------------------------10s-12-12s-10-----10s-12-12s-10-||
D||---------------------------------------------------------------------||
A||---------------------------------------------------------------------||
E||---------------------------------------------------------------------||